Поиск по песням:


5nizza
Ace Of Base
Adele
Blink 182
Comedy Club
Cranberries
Eagles
Guns N Roses
Limp Bizkit
Lumen
Metallica
Nautilus Pompilius
Nirvana
Noize MC
Oasis
Red Hot Chili Peppers
System Of A Down
The Beatles
x-meatles
Агата Кристи
Алиса
Ария
Аукцыон
Баста
Би-2
Браво
Бумбокс
Бутусов Вячеслав
Высоцкий Владимир
Город 312
Гражданская Оборона
Гребенщиков Борис
Дворовые песни
ДДТ
Жуки
Звери
Земфира
Кино
Король и Шут
Круг Михаил
Ласковый май
Лепс Григорий
Любэ
Ляпис Трубецкой
Мальчишник
Маркин Владимир
Машина времени
Мельница
Мумий Тролль
Никольский Константин
Ночные снайперы
Окуджава Булат
Песни из кинофильмов
Петлюра
Пилот
Плач Єремії
Рождество
Розенбаум Александр
Сектор Газа
Смысловые Галлюцинации
Сплин
Танцы Минус
Трофим
Чайф
Чиж & Co
Янка Дягилева

Исполнитель:

Ария

Песня:

Без тебя



Haifisch MrCasper309
Видео добавил: Haifisch

Рейтинг 4.82/5, проголосовало: 11


Сообщить о нарушении


Похожие видео:
2012-01-01 00:00
Леприконсы - Хали-Гали,Паратрупер
2013-09-02 00:24
Муцураев - твоя нежная походка
2010-08-03 16:55
Серьга Коля - Уходи


Комментарии:

4/4/2014 7:00 PM
Подобрано идеально, но играть само по себе её сложно. Ни как ни получается(

3/30/2014 1:22 PM
Большое спасибо за песню. Звучит идеально.

11/4/2013 5:25 AM
спасибо большое!давно эту песню сыграть хотел!

2/18/2012 8:10 PM
клано подобрано і грать просто!Дякую!

12/30/2010 1:30 AM
да,я.)

Haifisch.

12/29/2010 6:06 PM
О_о это же ты нойза играл ? 

TyaR

12/28/2010 9:51 AM
подобрано отлично.спасибо



Оставьте свой комментарий:


Ария - Без тебя

Ария - без тебя.

Вступление и куплеты:

1|-1-------0------|
2|---3---3---3---3|
3|-----2-------2--|
4|-0--------------|
5|---------3------|
6|----------------|

1|-------------0--|
2|-3-------2-----2|
3|---0-------0----|
4|----------------|
5|-1-----1-0------|
6|-----3----------|

1|-1-------0------|
2|---3---3---3---3|
3|-----2-------2--|
4|-0--------------|
5|---------3------|
6|----------------|

1|----------------|
2|-3---5---3---3--|
3|---0---0---2---2|
4|---------0------|
5|-1---3----------|
6|----------------|

1|-1-0-----0------|     \
2|-----3-----3---3|      |
3|-------2-----0--|      |
4|-0--------------|      |
5|---3-----3-1----|      |
6|----------------|      |
                         |   x2
1|-----0-------0--|      |
2|-2-----2---2---2|      |
3|---2-----2------|      |
4|----------------|      |
5|-0--------------|      |
6|----------------|      /

Припев:

7 аккордов. В тексте показано,где какой аккорд ставить.

    I   II   III   IV  V  VI  VII
1|--2----x----x----x---x---x---x--|
2|--3----x----x----x---x---x---x--|
3|--2----x----3----5---x---x---2--|
4|--0----5----3----5---3---2---2--|
5|--x----5----1----3---3---0---0--|
6|--x----3----x----x---1---0---x--|



Текст песни:

Снова брошен в окна лунный свет,
Дом мой сонный серебром одет

Лунной кисти не достичь глубин -
Эту бездну знаю я один

Припев:
 I               II
Все, все как вчера
 I               II   III   IV
Все, все как вчера
 I               II
Все, все как вчера
          VII   II   V   VI
Но без тебя

Ревность, жалость, словно заодно,
Птицей скорби падаю на дно






© 2009 Copyright dBES, Все права защищены. E-Mail: videoaccords@gmail.com     Список песен