Поиск по песням:


5nizza
Ace Of Base
Adele
Blink 182
Comedy Club
Cranberries
Eagles
Guns N Roses
Limp Bizkit
Lumen
Metallica
Nautilus Pompilius
Nirvana
Noize MC
Oasis
Red Hot Chili Peppers
System Of A Down
The Beatles
x-meatles
Агата Кристи
Алиса
Ария
Аукцыон
Баста
Би-2
Браво
Бумбокс
Бутусов Вячеслав
Высоцкий Владимир
Город 312
Гражданская Оборона
Гребенщиков Борис
Дворовые песни
ДДТ
Жуки
Звери
Земфира
Кино
Король и Шут
Круг Михаил
Ласковый май
Лепс Григорий
Любэ
Ляпис Трубецкой
Мальчишник
Маркин Владимир
Машина времени
Мельница
Мумий Тролль
Никольский Константин
Ночные снайперы
Окуджава Булат
Песни из кинофильмов
Петлюра
Пилот
Плач Єремії
Рождество
Розенбаум Александр
Сектор Газа
Смысловые Галлюцинации
Сплин
Танцы Минус
Трофим
Чайф
Чиж & Co
Янка Дягилева

Исполнитель:

Metallica

Песня:

To Live Is To Die



WoIfheart
Видео добавил: WoIfheart

Рейтинг 4.5/5, проголосовало: 6


Сообщить о нарушении


Похожие видео:
2016-16-12 22:58
Metallica - Harvestr of sorrow
2011-31-01 15:35
Nautilus Pompilius - Я хочу быть с тобой
2012-01-01 00:00
Чайф - Рок-н-Ролл Этой Ночи


Комментарии:

1/31/2012 7:50 AM
"Что означает P and H"
Кто незнает P-пулл
            H-хамер

12/4/2011 10:44 AM
Что означает P and H

11/7/2011 12:50 AM
я думал вступление будет...а это ещё в детстве играл

7/8/2011 4:11 PM
В табах парень не написал, на видео сделал-предпоследний звук, 3 лад вторая струна, на самом деле так ----3p0---

7/8/2011 4:04 PM
Я один думаю, что к этому соло было бы классно добавить флейту?)) Молодец!! Буду учить))

5/20/2011 3:18 PM
люди учитесь по GuitarPro. качайте табы. и ни каких проблем's

5/8/2011 6:39 PM
Я разрыдался:) Паря ну если меня твоя игра заставила загрустить, Ты супер:) Респект и уважуха чювак:)

4/23/2011 11:24 PM
Фон не надо было включать и гриф не видно не понятно ты играешь или нет

3/19/2011 8:59 PM
малодец а гриф не видно 

1/11/2011 7:00 AM
кто ж снимает так, не видно грифа полностью. Сама игра хорошая) хотелось бы римейк получить

12/20/2010 8:58 PM
приятно слушать - талант!!!

12/13/2010 7:32 PM
классно сыграл. Молодец!!!



Оставьте свой комментарий:


Metallica - To Live Is To Die

E----------------------------------------------------------|
B--0-h-1--------0h1p0-----0--------------------------------|
G---------2-----------2----------2------0-------0----------|
D------------2-----------------------------------------2---|
A--0------------------------------------------------------2|
E-------------------------3---------3-------3---0----------|


E----------------------------------------------------------|
B--------------------------1-------------3-------3--------0|
G--0-------0-h-2------------------2------------------------|
D-----------------0------------------2---------------------|
A---------------------0----0-------------------------------|
E------0---1---------------------------------0---3-----3---|


E---------------------------------------------------|
B---------------------------0----------------3------|
G--0------0-------------0-------0-------------------|
D----------------2---------------------0------------|
A-------------------2-------2-------------2---------|
E-----0---0---------------------3---------------0---|






© 2009 Copyright dBES, Все права защищены. E-Mail: videoaccords@gmail.com     Список песен