Поиск по песням:


5nizza
Ace Of Base
Adele
Blink 182
Comedy Club
Cranberries
Eagles
Guns N Roses
Limp Bizkit
Lumen
Metallica
Nautilus Pompilius
Nirvana
Noize MC
Oasis
Red Hot Chili Peppers
System Of A Down
The Beatles
x-meatles
Агата Кристи
Алиса
Ария
Аукцыон
Баста
Би-2
Браво
Бумбокс
Бутусов Вячеслав
Высоцкий Владимир
Город 312
Гражданская Оборона
Гребенщиков Борис
Дворовые песни
ДДТ
Жуки
Звери
Земфира
Кино
Король и Шут
Круг Михаил
Ласковый май
Лепс Григорий
Любэ
Ляпис Трубецкой
Мальчишник
Маркин Владимир
Машина времени
Мельница
Мумий Тролль
Никольский Константин
Ночные снайперы
Окуджава Булат
Песни из кинофильмов
Петлюра
Пилот
Плач Єремії
Рождество
Розенбаум Александр
Сектор Газа
Смысловые Галлюцинации
Сплин
Танцы Минус
Трофим
Чайф
Чиж & Co
Янка Дягилева

Исполнитель:

Milow

Песня:

Howling at the moon



vsss
Видео добавил: vsss

Рейтинг 4.25/5, проголосовало: 4


Сообщить о нарушении


Похожие видео:
2011-31-01 15:35
Чиж & Co - Прогулка по Одессе
2013-07-07 21:23
7Б - Помоги мне
2013-24-03 18:23
ЯрмаК - Сердце пацана


Комментарии:

        Нет ни одного комментария...


Оставьте свой комментарий:


Milow - Howling at the moon

Chords: 
-------
Am:    x02210
C:     x32010
F:     x33211
Fadd9: xx3213
Fmaj7: x33210


[Intro]
(from the single, when played live the intro is longer)

   F          Am         C        G
e|----------------------------3---------|
B|---/10--10-8--5---5-3--5------5-3-----|
G|---/10--10-9--5---5-4--5--------------|
D|--------------------------------------|
A|--------------------------------------|
E|--------------------------------------|


[Verse]
  F
Where did the summer go
   Am
I found it in Monaco
 C
Dancing in Mexico
 G
Suchi in Tokyo
   F
I wanna be where you are
  Am
Drive in a classic car
 C
Cuba is not so far
G
I can bring my guitar


[Interlude]
   F          Am         C        G           F           Am         C        G           
e|----------------------------3-------------------------------------------3-------|
B|---/10--10-8--5---5-3--5------5-3-------5------/10--10-8--5---5-3--5------5-3---|
G|---/10--10-9--5---5-4--5------------5h7---5----/10--10-9--5---5-4--5------------|
D|--------------------------------------------7-----------------------------------|
A|--------------------------------------------------------------------------------|
E|--------------------------------------------------------------------------------|


[Chorus]
             Fmaj7
Baby are we there yet
                Am
Meet me at the sunset
               C     G
Summer will be over soon
                     Fadd9
I’ll see you when you get there
             Am
But until we get there we’ll be
 C              G
Howling at the moon

              F
Baby are we there yet
                Am
Meet me at the sunset
               C     G
Summer will be over soon
                      F
I’ll see you when you get there
             Am
But until we get there we’ll be
 C              G
Howling at the moon

  F   Am    C              G
Ahoooooo   Howling at the moon
  F   Am    C              G
Ahoooooo   Howling at the moon


[Verse]
  F
Where is the summertime
 Am
Take my back to Huwai
  C
Skyscrapers in Dubai
 G
Palaces in Versailles
 F
Someone should fly with me
      Am
Have dinner in Sicily
 C
Be who you wanna be
 G
Right where you wanna be


[Interlude]
   F          Am         C        G          (F)
e|----------------------------3-----------------|
B|---/10--10-8--5---5-3--5------5-3-------5-----|
G|---/10--10-9--5---5-4--5------------5h7---5---|
D|--------------------------------------------7-|
A|----------------------------------------------|
E|----------------------------------------------|


[Chorus]
             Fmaj7
Baby are we there yet
                Am
Meet me at the sunset
               C     G
Summer will be over soon
                     Fadd9
I’ll see you when you get there
             Am
But until we get there we’ll be
 C              G
Howling at the moon

              F
Baby are we there yet
                Am
Meet me at the sunset
               C     G
Summer will be over soon
                      F
I’ll see you when you get there
             Am
But until we get there we’ll be
 C              G
Howling at the moon

              F
Baby are we there yet
                Am
Meet me at the sunset
               C     G
Summer will be over soon
                      F
I’ll see you when you get there
             Am
But until we get there we’ll be
 C              G
Howling at the moon


[Outro]
  F   Am    C              G
Ahoooooo   Howling at the moon
  F   Am    C              G
Ahoooooo   Howling at the moon
  F   Am    C              G
           Howling at the moon
  F   Am    C              G
Ahoooooo   Howling at the moon






© 2009 Copyright dBES, Все права защищены. E-Mail: videoaccords@gmail.com     Список песен