Поиск по песням:


5nizza
Ace Of Base
Adele
Blink 182
Comedy Club
Cranberries
Eagles
Guns N Roses
Limp Bizkit
Lumen
Metallica
Nautilus Pompilius
Nirvana
Noize MC
Oasis
Red Hot Chili Peppers
System Of A Down
The Beatles
x-meatles
Агата Кристи
Алиса
Ария
Аукцыон
Баста
Би-2
Браво
Бумбокс
Бутусов Вячеслав
Высоцкий Владимир
Город 312
Гражданская Оборона
Гребенщиков Борис
Дворовые песни
ДДТ
Жуки
Звери
Земфира
Кино
Король и Шут
Круг Михаил
Ласковый май
Лепс Григорий
Любэ
Ляпис Трубецкой
Мальчишник
Маркин Владимир
Машина времени
Мельница
Мумий Тролль
Никольский Константин
Ночные снайперы
Окуджава Булат
Песни из кинофильмов
Петлюра
Пилот
Плач Єремії
Рождество
Розенбаум Александр
Сектор Газа
Смысловые Галлюцинации
Сплин
Танцы Минус
Трофим
Чайф
Чиж & Co
Янка Дягилева

Исполнитель:

Ради славы

Песня:

Уже не любовь



Victorianec
Видео добавил: Victorianec

Рейтинг 4.5/5, проголосовало: 4


Сообщить о нарушении


Похожие видео:
2011-26-11 11:15
Дворовые песни - Зараза
2010-08-03 16:55
Nautilus Pompilius - Дыхание
2012-25-01 01:19
Кино - Мои друзья


Комментарии:

5/29/2013 4:17 PM
какой бой???

5/29/2013 4:17 PM
какой бой???

12/13/2010 4:44 PM
я б у табах добавив 
|---------3------0------0-----------------3------0------0--------|
|-------1---1------1------1----1--------0---0------0------0---0--|
|-----2-------2------2------2---------0-------0------0------0----|
|----------------------------------------------------------------|
|--0-------------------------------------------------------------|
|----------------------------------3-----------------------------|



   Dsus2                           Em
|---------3------0------0-----------------3------0------0--------|
|-------3---3------3------3---3---------0---0------0------0---0--|
|-----2-------2------2------2---------0-------0------0------0----|
|--0-------------------------------------------------------------|
|----------------------------------------------------------------|
|----------------------------------0-----------------------------|

8/21/2010 4:39 AM
Текста нет, т.к. прочитать реп под гитару немного
 тяжеловато и звучать тогда это будет крайне плохо

8/21/2010 2:26 AM
Ну играешь не плохо, но...Где текст? вот я, лично, этой песни не знаю и как её петь тоже представляю с трудом...

ViT_all



Оставьте свой комментарий:


Ради славы - Уже не любовь

Вступление 

   Am                                   G
|---------3------0------0-----------------3------0------0--------|
|-------1---1------1------1-------------0---0------0------0------|
|-----2-------2------2------2---------0-------0------0------0----|
|----------------------------------------------------------------|
|--0-------------------------------------------------------------|
|----------------------------------3-----------------------------|



   Dsus2                           Em
|---------3------0------0-----------------3------0------0--------|
|-------3---3------3------3-------------0---0------0------0------|
|-----2-------2------2------2---------0-------0------0------0----|
|--0-------------------------------------------------------------|
|----------------------------------------------------------------|
|----------------------------------0-----------------------------|

перебор: бас 3 2 1 2 3 1 2 3 1 2 3
G* - нижняя струна открытая
Am                                G
Ты видишь, что это уже не любовь.
Dsus2                                Em
Мы просто привыкли с тобою быть рядом.

Am
Детка, сядь напротив, 
В твоих глазах тревогу вижу,

G*
Пора поговорить о том, что с нами будет.

Dsus2
Кто любит, а кто привык, 
выяснить не ясные моменты

Em 
Уяснить и стоит ли нам вместе быть дальше...

Am
И утопая в глупой фальша, 

                G*
пытаюсь утянуть кусочек счастья

                                Dsus2
Червовой масти. Дожди, ненастья на щеках. Не надо слез детка, 

                        Em
давай хоть раз всерьез поговорим, и выясним, стоим ли мы друг 
друга.
Am
И чья куда лежит дорога, дрожит твоя рука
G
Твои глаза как будто за стеклом, ты понимаешь сама,
Dm                                                 Em
Что нам пора уже расстаться без всяких сладостей, типа остаться друзьями.
                         Am
ты знаешь мы не сможем. Я согласен, страшно, но бояться не стоит, 
G
ведь все, что мы делаем в этой жизни к лучшему происходит. Для 
Dm                                           G
нас обоих будет лучше уйти и не возращаться. ты просишь не уходить, 
но пришло время прощаться...

Припев:
Am
ты видишь что это уже не любовь,

G
мы просто привыкли с тобою быть рядом. 

Dm
Останься со мною на пару минут

Em
Я кричу уходи, только слез не надо! (2 раза)

F
(первые 2 строфы играть как проигрыш, кроме Em)
Am
Я был счастлив с тобой как ни с кем и никогда
G
Все начиналось как всегда в сказке,
Любовь, цветы и ласки
Dsus2
и по ночам рука в руке ночной город встречаем,
Em
Мы провожаем закат ты сладко спишь а я шепчу тебе
   Am                                                    G
Люблю моя родная, ты знаешь, ближе тебя у меня нет никого. И 
                                              Dsus2
все хорошо у нас будет. Я верил тогда в это. встречая рассвет 
                     Em
с солнцем твоей улыбки. Но так получилось и мы допустили ошибки
F
помнишь что-то по мелочи так зацепились. Грязь в словах. Мы сами 
                         Am     
перед собой провинились. Стали меньше доверять друг другу, стали 
проверять друг друга. Ты встречаться стала с каким-то старым 
         Am                                      G
другом. Я ревновал сначала, потом достало, проехал по наде. и 
                                             Dm
веришь как-то поровну стало на то в чьей-то кровати. нет никакой любви 
                                   Em
лишь только привычка быть рядом. Мы можем быть вместе но пойми, 
нам это не надо!

F

Припев(два раза).






© 2009 Copyright dBES, Все права защищены. E-Mail: videoaccords@gmail.com     Список песен