Поиск по песням:


5nizza
Ace Of Base
Adele
Blink 182
Comedy Club
Cranberries
Eagles
Guns N Roses
Limp Bizkit
Lumen
Metallica
Nautilus Pompilius
Nirvana
Noize MC
Oasis
Red Hot Chili Peppers
System Of A Down
The Beatles
x-meatles
Агата Кристи
Алиса
Ария
Аукцыон
Баста
Би-2
Браво
Бумбокс
Бутусов Вячеслав
Высоцкий Владимир
Город 312
Гражданская Оборона
Гребенщиков Борис
Дворовые песни
ДДТ
Жуки
Звери
Земфира
Кино
Король и Шут
Круг Михаил
Ласковый май
Лепс Григорий
Любэ
Ляпис Трубецкой
Мальчишник
Маркин Владимир
Машина времени
Мельница
Мумий Тролль
Никольский Константин
Ночные снайперы
Окуджава Булат
Песни из кинофильмов
Петлюра
Пилот
Плач Єремії
Рождество
Розенбаум Александр
Сектор Газа
Смысловые Галлюцинации
Сплин
Танцы Минус
Трофим
Чайф
Чиж & Co
Янка Дягилева

Исполнитель:

Noize MC

Песня:

Выдыхай (intro)



Haifisch
Видео добавил: Haifisch

Рейтинг 4.22/5, проголосовало: 9


Сообщить о нарушении


Похожие видео:
2011-09-12 20:56
Стрыкало Валентин - Наше лето
2012-14-02 15:42
Сплин - Шато Марго
2011-31-01 15:35
Армейские - Клен


Комментарии:

2/9/2016 12:39 AM
Hi, I hope you are doing well. video-accords.net We are back in business & can reliably post reviews on Google+, Facebook, Yelp and more.

 Prices are $20/14 per review (incl. writing vs if you provide the content) for all platforms except Yelp, and $36/30 for Yelp.


  We can also get you on Wikipedia. Pages as well as links. Please write back to REVIEWS@PANDAPR.COM OR WIKI@PANDAPR.COM 


 You can also contact us by Live Chat on our website http://www.pandapr.com 

 Our motto is that a happy customer is a repeat customer!

6/22/2014 1:19 PM
I can already tell that's gonna be super helupfl.

11/23/2013 2:22 PM
Отлично сыграно! Но один минус, гитара расстроена) А так техника мастерская)

1/24/2013 1:20 PM
неочем сыграл...мне вообще не понравилось...тем более неправильно...

4/26/2011 2:36 AM
"здесь перебор понятнее)
а как играть дальше,после перебора?"

а табулатуры слишком сложны?)
не знаю,я дальше не подбирал.как-то только интро захотелось)

                         Haifisch.

4/26/2011 2:36 AM
"здесь перебор понятнее)
а как играть дальше,после перебора?"

а табулатуры слишком сложны?)
не знаю,я дальше не подбирал.как-то только интро захотелось)

4/26/2011 2:32 AM
"Я лучше версию играть умею"

сыграй да выложи,я послушаю.

                           Haifisch.

4/14/2011 3:59 PM
http://vkontakte.ru/search?c[q]=%D0%B2%D1%8B%D0%B4%D1%8B%D1%85%D0%B0%D0%B9&c[section]=video&z=video-23587970_159696061

здесь перебор понятнее)
а как играть дальше,после перебора?

3/24/2011 10:46 AM
Спасибо!!)

3/24/2011 10:46 AM
Спасибо!!)

3/11/2011 5:21 PM
Я лучше версию играть умею

3/6/2011 5:15 PM
Спасибо.

2/11/2011 1:22 PM
E|-----------------------------------------|
H|------0---0---0-1-0-------0---0---1--0---|
G|-----------------------------------------|
D|----2---2---0-------2---2---2---0------2-|
A|----------------------3------------------|
E|--0--------------------------------------|

|------------------------|----------------|
H|------0---0---0--3-------0---0---1--0----|
|-------------------0---------------------|
D|----2---2---0----------2---2---0-------2-|
|---------------------3-------------------|
E|--0--------------------------------------|

|-------------------------------------------|
|-------------------------------------------|
|-----2---2---2--0---------------------2--0-|
|---2---2---2--------4--------4---4---4-----|
|-0-------------------------4---4---4-------|
|-----------------------2-------------------|

|----------------------------------------------|
|----------------------------------------------|
|------0----------0---0-----2--2--0----------0-|
|---2-----0----2---------2-----------4----4----|
|------------3-------------------------2-------|
|-0--------------------------------------------|

кому помог скажите пасибо)

11/7/2010 6:14 PM
Вы че несете? какой поешь? какой перебор? тут только интро и отлично сыграно

10/8/2010 2:17 AM
Ошибок полно, но самая главная - это то что во первых расстроена гитара(звук как из консервной банки), сильно быстро поёшь, да и вообще песня то перебором играется. Согласен, перебором сложно, у меня и у самого по началу не получалось... Короче мой диагноз - на сцену тебе нельзя.

10/2/2010 2:52 PM
очень нравится, молодец ;D

9/29/2010 11:40 AM
Молодеееец!!!!! Так давно пыталась научиться!!!!!))) Обожаю эту песенку))))

8/12/2010 11:35 AM
блин спасибо большое....сейчас буду пробывать!!!))

8/12/2010 3:09 AM
после Ам пальцы на 4 струну 4 лад и 5 струну 2
лад. 
1|------------
2|------------
3|-------2-0--
4|4-4-4-4-----
5|-2-2-2------
6|------------
вот этот момент.

потом опять С

1|-----------|--------------------
2|-----------|--------0-----------
3|---0---0---|---0---0------------
4|--2-2-2-2--|--4-4-4-------------
5|-----3---3-|-5---2--------------
6|0----------|--------------------

С играется доместа где таба разделена вот.
а после С ставится 4 струна 4 лад, она не убирается. 
а на 5 струне сначала играется 5 лад, а потом резко переезжаем на 2 лад.

8/11/2010 7:22 PM
ну вот смотри...ну можно сказать что первый акорд С (там прост палец ставишь и забираешь),а потом АМ(также)....ну а потом я что то немогу понять ти ставишь на 2-м 3-м и 4-м ладу...ну и дальше после него.....можеш пжл росписать_)))

8/11/2010 2:22 PM
где именно? тут не по аккордам))

8/11/2010 1:43 PM
а шо за акорды после С и АМ???ато что то немогу розобрать напиши пжл))

7/13/2010 10:55 PM
Круто) Спасибо^^

7/13/2010 10:50 PM
Круто)Спасибо

7/8/2010 11:29 PM
Слишком быстро ,а так в нормально !

7/8/2010 6:00 PM
koxva: можно выкладывать по больше песен Noize MC, спасибо. Сыграл хорошо, как в оригинале 

7/8/2010 5:54 PM
ништяяк!!! 

7/8/2010 11:57 AM
молодец!!! это мой любимый исполнитель!! уже учу...) мой тебе совет - играй медиатором! (звук ярче)



Оставьте свой комментарий:


Noize MC - Выдыхай (intro)

Этим способом играется вступление и куплеты.
Припев можно играть боем, чередуя аккорды Em, C, D, Hm. 
(На строке "но если честно во всем виноват я сам" вместо аккорда D ставится аккорд G)





1|------------------------------
2|--0-0-1-0---0-0-1-0---0-0-0-3-
3|-----------------------------0
4|-2-2-2---2-2-2-2---2-2-2-2----
5|----------3-------------------
6|0-------------------0---------

1|------------------------------
2|--0-0-1-0---------------------
3|-----------2-2-2-0-------2-0--
4|-2-2-2----2-2-2---4-4-4-4-----
5|3--------0---------2-2-2------
6|------------------------------

1|------------------------------
2|------------------0-----------
3|---0---0-----0---0------------
4|--2-2-2-2---4-4-4-------------
5|-----3---3-5---2--------------
6|0-----------------------------






© 2009 Copyright dBES, Все права защищены. E-Mail: videoaccords@gmail.com     Список песен