Поиск по песням:


5nizza
Ace Of Base
Adele
Blink 182
Comedy Club
Cranberries
Eagles
Guns N Roses
Limp Bizkit
Lumen
Metallica
Nautilus Pompilius
Nirvana
Noize MC
Oasis
Red Hot Chili Peppers
System Of A Down
The Beatles
x-meatles
Агата Кристи
Алиса
Ария
Аукцыон
Баста
Би-2
Браво
Бумбокс
Бутусов Вячеслав
Высоцкий Владимир
Город 312
Гражданская Оборона
Гребенщиков Борис
Дворовые песни
ДДТ
Жуки
Звери
Земфира
Кино
Король и Шут
Круг Михаил
Ласковый май
Лепс Григорий
Любэ
Ляпис Трубецкой
Мальчишник
Маркин Владимир
Машина времени
Мельница
Мумий Тролль
Никольский Константин
Ночные снайперы
Окуджава Булат
Песни из кинофильмов
Петлюра
Пилот
Плач Єремії
Рождество
Розенбаум Александр
Сектор Газа
Смысловые Галлюцинации
Сплин
Танцы Минус
Трофим
Чайф
Чиж & Co
Янка Дягилева

Исполнитель:

Foo Fighters

Песня:

Skin And Bones



wladdddi
Видео добавил: wladdddi

Рейтинг 4.85/5, проголосовало: 27


Сообщить о нарушении


Похожие видео:
2013-27-02 12:46
Петлюра - Моя Любимая
2011-31-01 15:35
Кино - Восьмиклассница
2012-17-06 17:27
Nautilus Pompilius - Я хочу быть с тобой


Комментарии:

2/4/2015 10:02 AM
The Securities and Exchange Board of India approved plans for Satyam to sell 51 percent of the company, the Hyderabad-based software-services provider said yesterday. International Business Machines Corp may be the front-runner to acquire the Indian company, the Business Standard reported on Thursday, citing unidentified people familiar with the situation.
[url=http://www.2konzept.de/upload.php?abercrombie-and-fitch/]abercrombie and fitch[/url]



Оставьте свой комментарий:


Foo Fighters - Skin And Bones

Так как в этой песне многие пассажы просто повторяются я описываю только главные её части.
Первая струна не играется вообще, цепляется постоянно бас и 2+3 струны.

Intro:

1---------------------------
2-----10----10----10----10--
3-----10----10----10----10--
4---------------------------   И так далее..Этот проигрыш доминирует на протяжении всей песни
5---------------------------
6---10----10----10----10----


Куплет:

          Lately    I`ve been        measuring

1------------------------------------------------------
2-------10-----10-----10-----10----10---10------10----10-
3-------10-----10-----10-----10----10---10------10----10-
4--------------------------------------------------------  ...и так далее..
5------------------10-----10-----------------------------
6-----10-----10-------------------9----9------10----10---

в конце куплета:

       watch me   spin        watch me     spin 

1------------------------------------------------------
2-------10---10-----10----10----10---10------10----10-
3-------10---10-----10----10----10---10------10----10-
4--------------------------------------------------------  
5----- -----------------------------------------------
6-----9----9------10----10-----9----9------10-----10---


Припев:

  Skin and    bones...( 3 раза)               don`t you know...i`m just skin and bones

1----------------------                      1-----------------------         
2-----3---3-----10-----                      2-----5----5----5---5---
3-----3---3-------10---              затем:  3-----5----5----5---5--       повторяется несколёко раз,                                       4--------------------0-                      4-----------------------      потом опять всё на 10-й лад
5----------------------                      5-----------------------
6----3---3---10--------                      6----5----5----5---5----                                                                          

    
Проигрыш "I`m just skin and bones" :

1----------------------
2------10---10-----10--
3------10---10-----10--
4----------------9-----
5----------8-----------
6----10----------------


Lately I've been measuring
Seems my time is growing thin
Wind me up and watch me spin
Watch me spin, watch me spin

Skin and bones, skin and bones
Skin and bones don't you know?
Skin and bones, skin and bones
Skin and bones don't you know?
I'm just skin and bones

All worn out and nothing fits
Brennivin and cigarettes
More I give the less I get
But I'm all set, I'm all set

Skin and bones, skin and bones
Skin and bones don't you know?
Skin and bones, skin and bones
Skin and bones don't you know?

I'm just skin and bones
I'm just skin and bones
I'm just skin and bones
I'm just skin and bones
I'm just skin and bones

Deep within this frame of mind
Heart of hearts, oh, Valentine
Tell my mom I'm doing fine
Doing fine, doing fine

Skin and bones, skin and bones
Skin and bones don't you know?
Skin and bones, skin and bones
Skin and bones don't you know?

Skin and bones, skin and bones
Skin and bones don't you know?

I'm just skin and bones






© 2009 Copyright dBES, Все права защищены. E-Mail: videoaccords@gmail.com     Список песен