Поиск по песням:


5nizza
Ace Of Base
Adele
Blink 182
Comedy Club
Cranberries
Eagles
Guns N Roses
Limp Bizkit
Lumen
Metallica
Nautilus Pompilius
Nirvana
Noize MC
Oasis
Red Hot Chili Peppers
System Of A Down
The Beatles
x-meatles
Агата Кристи
Алиса
Ария
Аукцыон
Баста
Би-2
Браво
Бумбокс
Бутусов Вячеслав
Высоцкий Владимир
Город 312
Гражданская Оборона
Гребенщиков Борис
Дворовые песни
ДДТ
Жуки
Звери
Земфира
Кино
Король и Шут
Круг Михаил
Ласковый май
Лепс Григорий
Любэ
Ляпис Трубецкой
Мальчишник
Маркин Владимир
Машина времени
Мельница
Мумий Тролль
Никольский Константин
Ночные снайперы
Окуджава Булат
Песни из кинофильмов
Петлюра
Пилот
Плач Єремії
Рождество
Розенбаум Александр
Сектор Газа
Смысловые Галлюцинации
Сплин
Танцы Минус
Трофим
Чайф
Чиж & Co
Янка Дягилева

Исполнитель:

Аквариум

Песня:

Государыня



paxankin
Видео добавил: paxankin

Рейтинг 4.2/5, проголосовало: 5


Сообщить о нарушении


Похожие видео:
2012-24-11 15:29
Кино - кукушка
2011-31-01 15:35
Face2Face - Кошка
2017-24-02 08:45
Сплин - Романс


Комментарии:

1/22/2016 9:41 AM
Вступление немного по другому
e    3 .. 3  2h3p2 0 
h                    3

5/4/2014 1:28 AM
оч красиво

7/10/2013 11:51 AM
Молодца, сам хотел эту песню записать, но вижу что надобность отпала. Только где проигрыш соло в середине. Хотя,возможно эта другая версия. Респект однако!!!



Оставьте свой комментарий:


Аквариум - Государыня

Каподастр на 4 ладу:

e|--3------2h3p2------0------------------0------------------..
h|------0--------3-0------3-------------------3-------------..
g|----0-----------------0------0---0-------0-------0---0----..
d|---------------------------0---0---0-----------0---0---0--..
a|--------------------3------------------3------------------..
E|--0---------------------3-------------------3-------------..

..----------------------                       |..-0---0------
..-1---0--------0-------                             |..----0-0-----
..---0------0-------0---                                |..---0---0-0--
..--------2---2---2---2-                           |..--------2---
..-3--------------------                          |..------------        
..-----0----------------                          |..-0----------        

Em
Государыня,
 C                       G
Помнишь ли, как строили дом -
  Am                      C    Em
Всем он был хорош, но пустой;
Столько лет
Шили по снегу серебром,
Боялись прикоснуть кислотой;
Столько лет
Пели до седьмых петухов,
Пели, но боялись сказать.
Государыня,
Ведь если ты хотела врагов,
Кто же тебе смел отказать?

Так что же мы
До сих пор все пьем эту дрянь,
Цапаем чертей за бока?
Ведь нам же сказано,
Что утро не возьмет свою дань,
Обещано, что ноша легка;
Так полно, зря ли мы
Столько лет все строили дом -
Наша ли вина, что пустой?
Зато теперь
Мы знаем, каково с серебром;
Посмотрим, каково с кислотой...






© 2009 Copyright dBES, Все права защищены. E-Mail: videoaccords@gmail.com     Список песен