Поиск по песням:


5nizza
Ace Of Base
Adele
Blink 182
Comedy Club
Cranberries
Eagles
Guns N Roses
Limp Bizkit
Lumen
Metallica
Nautilus Pompilius
Nirvana
Noize MC
Oasis
Red Hot Chili Peppers
System Of A Down
The Beatles
x-meatles
Агата Кристи
Алиса
Ария
Аукцыон
Баста
Би-2
Браво
Бумбокс
Бутусов Вячеслав
Высоцкий Владимир
Город 312
Гражданская Оборона
Гребенщиков Борис
Дворовые песни
ДДТ
Жуки
Звери
Земфира
Кино
Король и Шут
Круг Михаил
Ласковый май
Лепс Григорий
Любэ
Ляпис Трубецкой
Мальчишник
Маркин Владимир
Машина времени
Мельница
Мумий Тролль
Никольский Константин
Ночные снайперы
Окуджава Булат
Песни из кинофильмов
Петлюра
Пилот
Плач Єремії
Рождество
Розенбаум Александр
Сектор Газа
Смысловые Галлюцинации
Сплин
Танцы Минус
Трофим
Чайф
Чиж & Co
Янка Дягилева

Исполнитель:

С.К.А.Й

Песня:

Струна



Victorianec Oleg'aTOR
Видео добавил: Victorianec

Рейтинг 4.67/5, проголосовало: 6


Сообщить о нарушении


Похожие видео:
2011-31-01 15:35
Агата Кристи - Как на войне
2012-16-03 12:50
Сплин - Аделаида
2012-22-04 12:59
Эпидемия - Вечный воитель


Комментарии:

1/11/2015 11:00 AM
все видео ждал пока он начнет петь...
посмотрите на правую руку, висит словно клешня...

1/11/2015 10:59 AM
говно

8/16/2014 2:21 PM
Я без каподастра норм зіграв ) замість 5ой на третьому - шосту на 8ому

3/13/2013 9:09 PM
бест..))

3/13/2013 3:19 PM
круто...



Оставьте свой комментарий:


С.К.А.Й - Струна

Подбиралось на слух, так что неточностей достаточно
Выкладываю просто как упрощенный вариант аккомпанемента для песни

E|--------------------------------3---4-3---------------------------------3---4-3----
B|-----6---------8-----------------------------6---------8---------------------------
G|-------8--8-7----7-7-5\4-5-5------5-------------8--8-7----7-7-5\4-5-5-----5--------
D|-----------------------------------------------------------------------------------
A|--3---------------------------------------3----------------------------------------
E|-----------------------------------------------------------------------------------

с середины песни где "я тебе люблю бiльше за життя"  идут аккорды Cm, Hb, G#

Дальше что-то наподобие

E|-----3-----3------3---3--------3-----3------3---3---3-------------
B|-------4----------------4--------4----------------4---------------
G|---------5----------5--------------5----------5-------------------
D|---------------3--------------------------------------------------
A|--3-------------------------6-------------------------------------
E|-----------------------------------------6------------------------

Натягнута струна звучить поки жива,
Одна коротка мить, одне лише життя.
Сюди я більше не прийду, і не скажу привіт,
Не б’ється мій граніт, пробач мені прошу.

Лиш склянка на столі, і втомлена душа,
Все так як ти хотів, - самотність і пустота.
А ми разом бути могли, а ми ходили б у кіно,
Мені потрібна тільки ти, але тобі вже все-одно-ооооо
Повертайся ….. я тебе люблю ….. більше за життя …. 
Більше за життя ….
Я тебе люблю …. Більше за життя 
Я тебе люблю …. Більше за життя
Я тебе люблю …. Більше за життя
Я тебе люблю …. Більше за життя 
Я тебе люблю …. Більше за життя






© 2009 Copyright dBES, Все права защищены. E-Mail: videoaccords@gmail.com     Список песен