Поиск по песням:


5nizza
Ace Of Base
Adele
Blink 182
Comedy Club
Cranberries
Eagles
Guns N Roses
Limp Bizkit
Lumen
Metallica
Nautilus Pompilius
Nirvana
Noize MC
Oasis
Red Hot Chili Peppers
System Of A Down
The Beatles
x-meatles
Агата Кристи
Алиса
Ария
Аукцыон
Баста
Би-2
Браво
Бумбокс
Бутусов Вячеслав
Высоцкий Владимир
Город 312
Гражданская Оборона
Гребенщиков Борис
Дворовые песни
ДДТ
Жуки
Звери
Земфира
Кино
Король и Шут
Круг Михаил
Ласковый май
Лепс Григорий
Любэ
Ляпис Трубецкой
Мальчишник
Маркин Владимир
Машина времени
Мельница
Мумий Тролль
Никольский Константин
Ночные снайперы
Окуджава Булат
Песни из кинофильмов
Петлюра
Пилот
Плач Єремії
Рождество
Розенбаум Александр
Сектор Газа
Смысловые Галлюцинации
Сплин
Танцы Минус
Трофим
Чайф
Чиж & Co
Янка Дягилева

Исполнитель:

Угарный Ремейк

Песня:

Владивосток 2000 (МТ)



Carthage80
Видео добавил: Carthage80

Рейтинг 4.33/5, проголосовало: 3


Сообщить о нарушении


Похожие видео:
2013-12-02 19:52
Чайф - Ой-йо
2011-23-08 01:51
Агата Кристи - Два корабля
2012-22-08 21:53
Агата Кристи - Как на войне


Комментарии:

3/23/2012 8:48 PM
Оригинал найдёшь на Ютубе, а здесь можешь табы посмотреть - глядишь, сам и слабаешь. 

3/23/2012 5:47 PM
оргинал лучше бы сыграл, а то школоло версия какая то получилось



Оставьте свой комментарий:


Угарный Ремейк - Владивосток 2000 (МТ)

E-------------------------------------------------------------------------------------------------------------------
B--1-1-1-1-1-1-1-1-1-1-1-1-1-1-1-1...------------------------------1---1-1---1-3-1-0-1---1-1---1-1----1-3-1-0-1-----
G--2-2-2-2-2-2-2-2-2-2-2-2-2-2-2-2...------------------------------2---2-2---2-2-2-2-2---2-2---2-2----2-2-2-2-2-----
D--2-2-2-2-2-2-2-2-2-2-2-2-2-2-2-2...------------------------------2---2-2---2-2-2-2-2---2-2---2-2----2-2-2-2-2-----
A--0-0-0-0-0-0-0-0-0-0-0-0-0-0-0-0...------------------------------0---0-0---0-0-0-0-0---0-0---0-0----0-0-0-0-0-----
E-------------------------------------------------------------------------------------------------------------------

    Am          
С ракетою в кармане, с бутылкой в руке, 
Знакомый диско-бар уже виднелся вдалеке,
   Dm
Ты подходил спокойно, увидел много рож,
   C                        Em 
За вход в окошко кассы ты капусту отдаёшь. 

Когда билет продали и проныла луна, 
На входе обшмонали два больших кабана, 
Пустите на танцпол, включите свет, врубите звук, 
Огромный зал, танцуют все, не видно ваших рук! 

  Am                Dm
Заходим, заходим, заходим, 
   C                Em
Займём себе столы почище,
Am               Dm 
Парни гуляют и в пасть наливают, 
  C           Em
Налей ещё, дружище!

                               
B ----15-15-15-15-15-15-15-15-15------------
G ----16-16-16-16-16-16-16-16-16------------

В объятья полупьяных дураков попался ты, 
С горла водяру вы хлебали прямо как скоты, 
Упав при всех на жопу ты издал ужасный звук, 
Ты свой последний танец танцевал уже без сук. 

Быть может все забудут через тысячи лет, 
Как ты, держась за стены, пробирался в туалет, 
Где ждали унитазы твоей мощной волны, 
Где как назло лишь стали тяжелее штаны. 

E----------------------------------------------------------------------------------------------------------------------
B-------------------------12-12----------12-12------------------------------------12-12----------------------------12--
G-----------------12------------12-------------12------------------------12-------------12-----------------------------
D-------10-----10------------------12-12----------12---------10------10--------------------12---12--12--10--9--12------
A----12-----12-------------------------------------------12------12----------------------------------------------------
E----------------------------------------------------------------------------------------------------------------------

Уходим, уходим, уходим 
Найди себе портки почище, 
Жутко воняло, по ляжкам стекало, 
Забарахлило днище.
Уходим, уходим, уходим... 
Уходим, уходим, уходим... 

G---7--7--5--5--2--2----------------------------------------------------------------------
D---7--7--5--5--2--2--5--5--2--------------7--7-------------------------------------------
A---5--5--3--3--0--0--5--5--2--------------7--7-------------------------------------------
E---------------------3--3--0--------------5--5-------------------------------------------

(c) Дмитрий Бричевский






© 2009 Copyright dBES, Все права защищены. E-Mail: videoaccords@gmail.com     Список песен