Поиск по песням:


5nizza
Ace Of Base
Adele
Blink 182
Comedy Club
Cranberries
Eagles
Guns N Roses
Limp Bizkit
Lumen
Metallica
Nautilus Pompilius
Nirvana
Noize MC
Oasis
Red Hot Chili Peppers
System Of A Down
The Beatles
x-meatles
Агата Кристи
Алиса
Ария
Аукцыон
Баста
Би-2
Браво
Бумбокс
Бутусов Вячеслав
Высоцкий Владимир
Город 312
Гражданская Оборона
Гребенщиков Борис
Дворовые песни
ДДТ
Жуки
Звери
Земфира
Кино
Король и Шут
Круг Михаил
Ласковый май
Лепс Григорий
Любэ
Ляпис Трубецкой
Мальчишник
Маркин Владимир
Машина времени
Мельница
Мумий Тролль
Никольский Константин
Ночные снайперы
Окуджава Булат
Песни из кинофильмов
Петлюра
Пилот
Плач Єремії
Рождество
Розенбаум Александр
Сектор Газа
Смысловые Галлюцинации
Сплин
Танцы Минус
Трофим
Чайф
Чиж & Co
Янка Дягилева

Исполнитель:

Угарный Ремейк

Песня:

ВИА Гра - Попытка номер пять



Carthage80
Видео добавил: Carthage80

Рейтинг 5/5, проголосовало: 2


Сообщить о нарушении


Похожие видео:
2012-01-03 18:38
Кобизский Александр - «EMMANUELLE» на русском языке
2014-25-10 18:55
Армейские - Ну что Вам рассказать
2011-23-10 20:31
Гражданская Оборона - Никто не хотел умирать


Комментарии:

3/25/2012 1:39 AM
Красавчик. С этим номером хоть на сцену))))

3/20/2012 12:51 PM
Все видео прослушал )) кульно)) и текст песни и исполнение прикольное)) ваще красава)) настрою гитару )) буду слова учить)) гГ

3/20/2012 6:36 AM
Забыл указать: в припеве аккорд Dm играется без использования нижней струны.



Оставьте свой комментарий:


Угарный Ремейк - ВИА Гра - Попытка номер пять

Вступление

B ----------6--6----------------------------------------------------------------------
G ----4--5--------5--5--4------------7--7-7-4-4-5-----4--5--4-------------------------7--7-7-4-4--5----
D -7-----------------------7-5--5--5---------------7-----------7--5--5--7-5--5--5-5---------------


Am
В пятницу было дело, 
C      G               Am    ***
Один ушёл, во второй успела, 
Трамвай, весь битком набитый, 
Сидит мужик с рожею пропитой.
F        
Он уже совсем никакой, 
Dm
Занимает, гад, моё место, 
F
Дам ему под жопу ногой, 
G   C      F   G   
Плюхнусь в кресло! 

Am    F         G
А я любила, я любила им всем
   Dm    G    Am 
На тапки наступать,
Am       F           G 
Ох как намаялась молодёжь
        Dm    G   Am 
Старухе место уступать. 
А я достану из кармана чеснок 
И буду смачно жрать, 
Как все страдают от этого, 
А я одна, мне на всех насрать. 

С утра в магазин ходила, 
Всем продавцам мозг повыносила, 
Запачкала чьи-то шмотки, 
Козе молодой порвала колготки, 
Где б ещё грызню мне найти, 
Не могу, хочу поругаться, 
У платную больницу зайти - 
Доебаться. 

А я бранила, я бранила их всех 
Опять, опять, опять. 
Ох, как намаялись все врачи 
Тупой старухе объяснять. 
А я кричала, я кричала, 
Своей телегою гремя, 
Ах, как расслабилась молодёжь - 
Совсем не слушает меня!

(с) Дмитрий Бричевский

*** - в куплете после первого аккорда Am я играю примерно так
E-------------------------------------------------------------------------------------
B----h-------------------h-------5--------------------------------------------------
G---3-5-5--4------------5-7-7-5--5------------------------------------------------
D---3-5-5--5-----5--5---5---5-5--7-------------------------------------------------
A---3------5-----5--5------------7----------------------------------------------------
E----------3-----3--3------------5-------------------------------------------






© 2009 Copyright dBES, Все права защищены. E-Mail: videoaccords@gmail.com     Список песен