Поиск по песням:


5nizza
Ace Of Base
Adele
Blink 182
Comedy Club
Cranberries
Eagles
Guns N Roses
Limp Bizkit
Lumen
Metallica
Nautilus Pompilius
Nirvana
Noize MC
Oasis
Red Hot Chili Peppers
System Of A Down
The Beatles
x-meatles
Агата Кристи
Алиса
Ария
Аукцыон
Баста
Би-2
Браво
Бумбокс
Бутусов Вячеслав
Высоцкий Владимир
Город 312
Гражданская Оборона
Гребенщиков Борис
Дворовые песни
ДДТ
Жуки
Звери
Земфира
Кино
Король и Шут
Круг Михаил
Ласковый май
Лепс Григорий
Любэ
Ляпис Трубецкой
Мальчишник
Маркин Владимир
Машина времени
Мельница
Мумий Тролль
Никольский Константин
Ночные снайперы
Окуджава Булат
Песни из кинофильмов
Петлюра
Пилот
Плач Єремії
Рождество
Розенбаум Александр
Сектор Газа
Смысловые Галлюцинации
Сплин
Танцы Минус
Трофим
Чайф
Чиж & Co
Янка Дягилева

Исполнитель:

Lumen

Песня:

Гореть



Varenik ALtRock Vanya1994 pasha721 3HaXaPeK
Видео добавил: Varenik

Рейтинг 4.06/5, проголосовало: 63


Сообщить о нарушении


Похожие видео:
2012-22-06 16:19
Армейские - Сергей Любавин - Волчонок
2012-01-01 00:00
Сплин - Остаемся зимовать
2010-08-03 16:55
Машина времени - Однажды мир прогнется под нас


Комментарии:

1/18/2013 2:16 PM
да есть немного=(((

1/18/2013 12:44 PM
ну игру же как следует не отработал)
Из-за этого с ритма сбиваешься



Оставьте свой комментарий:


Lumen - Гореть

H||-----------------|-----------------|-----------------|
G||-----12------9---|-----10-------9--|-----9-----------|
D||---10------10----|---10-------10---|---10-10---------|
A||-10------10------|-10-------10-----|-10--------------|
E||-----------------|-----------------|-----------------|

E||-----------------|-----------------|-----------------|
H||-----------------|-----------------|-----------------|
G||----12------9----|----10-------9---|----9------------|
D||--10------10-----|--10-------10----|--10--10---------|
A||-8-------8-------|-8--------8------|-8---------------|
E||-----------------|-----------------|-----------------|

E||-----------------|-----------------|-----------------|
H||-----------------|-----------------|-----------------|
G||---0---0---------|---0---0---------|-----------------|
D||--7---7---7------|--7---7---7------|-----------------|
A||-5---5---5-------|-5---5---5-------|-----------------|
E||-----------------|-----------------|-----------------|


Куплет:

E||-----------------|-----------------|-----------------|-----------------|
H||-----------------|-----------------|-----------------|-----------------|
G||-----0----0------|----0----0-------|-----0-----0-----|-----0-----0-----|
D||---10---10---10--|--10---10---10---|---10----10----10|---10----10----10|
A||--0----0----0----|-0----0----0-----|-10----10----10--|-10----10----10--|
E||-----------------|-----------------|-----------------|-----------------|

E||-----------------|-----------------|-----------------|-----------------|
H||-----------------|-----------------|-----------------|-----------------|
G||----0----0-------|----0----0-------|---0---0---------|---0---0---------|
D||--10---10---10---|--10---10---10---|--7---7--7-------|--7---7--7-------|
A||-8----8----8-----|-8----8----8-----|-5---5--5--------|-5---5--5--------|
E||-----------------|-----------------|-----------------|-----------------|

Зачем кричать,  когда никто не слышит.
  О чем мы говорим...
  Мне кажется, что мы давно не живы
  Зажглись и потихоньку догорим 
  Когда нас много начинается пожар
  И города похожи, на крематорий и базар
  И все привыкли ничего не замечать,
  Когда тебя не слышат, для чего кричать?

         D*                  Am
          Мы можем помолчать, Мы можем петь,
         C                  G
          Стоять или бежать, но все равно гореть.
         D*                  Am
          Огромный синий кит порвать не может сеть.
         C                  G
          Сдаваться или нет, но всеравно гореть.


Пустое небо замыкает на себя
Слова и провода.
И снова с неба проливается на нас
Ответы и вода.
И если ты вдруг начал что-то понимать
И от прозрений, захотелось заорать
Давай кричи, но тебя могут не понять
Никто из них не хочет ничего менять

        Ты можешь замолчать, ты можешь петь,
        Стоять или бежать, но всеравно гореть.
        Огромный синий кит порвать не может сеть.
        Сдаваться или нет, но всеравно гореть.

        Мы можем помолчать, мы можем петь,
        Стоять или бежать, но всеравно гореть.
        Гори но не сжигай, иначе скучно жить
        Гори но не сжигай, гори чтобы светить






© 2009 Copyright dBES, Все права защищены. E-Mail: videoaccords@gmail.com     Список песен