Поиск по песням:


5nizza
Ace Of Base
Adele
Blink 182
Comedy Club
Cranberries
Eagles
Guns N Roses
Limp Bizkit
Lumen
Metallica
Nautilus Pompilius
Nirvana
Noize MC
Oasis
Red Hot Chili Peppers
System Of A Down
The Beatles
x-meatles
Агата Кристи
Алиса
Ария
Аукцыон
Баста
Би-2
Браво
Бумбокс
Бутусов Вячеслав
Высоцкий Владимир
Город 312
Гражданская Оборона
Гребенщиков Борис
Дворовые песни
ДДТ
Жуки
Звери
Земфира
Кино
Король и Шут
Круг Михаил
Ласковый май
Лепс Григорий
Любэ
Ляпис Трубецкой
Мальчишник
Маркин Владимир
Машина времени
Мельница
Мумий Тролль
Никольский Константин
Ночные снайперы
Окуджава Булат
Песни из кинофильмов
Петлюра
Пилот
Плач Єремії
Рождество
Розенбаум Александр
Сектор Газа
Смысловые Галлюцинации
Сплин
Танцы Минус
Трофим
Чайф
Чиж & Co
Янка Дягилева

Исполнитель:

Face2Face

Песня:

Кошка



confa Victorianec
Видео добавил: confa

Рейтинг 3.75/5, проголосовало: 4


Сообщить о нарушении


Похожие видео:
2014-21-01 22:50
Дворовые песни - все пройдет
2011-31-01 15:35
Барыкин Александр - ПТИЦЫ
2013-15-08 20:04
Высоцкий Владимир - Лирическая


Комментарии:

1/23/2011 1:17 PM
Начнём с того что он играет с басом...

10/4/2010 12:20 AM
По-моему и так звучит неплохо, сыграно прекрасно, пение на 4ку. 
Классно.

10/2/2010 7:37 PM
Почему без баса играешь?!!!!!!!
так звучит оцтойно...



Оставьте свой комментарий:


Face2Face - Кошка

E||------------------0--||---1-----------------------|\
H||---------------3-----||------3-----1--------------| \
G||------------2--------||*--------2--------3-----2~-|  \  3 раза
D||---------------------||*--0-----------------3-----|  /
A||---------------------||---------------------------| /
E||---------------------||---------------------------|/
                                                       
                                                                           

|--------------------------|----------0----------0--|----------0-----------|
|--------------------------|-------3----------3-----|-------3-----2~-------|
|-----2--2--2-----0-----2--|----2----------0--------|----2-----------------|
|--------------------3-----|------------------------|----------------------|
|--------------------------|------------------------|----------------------|
|--------------------------|------------------------|----------------------|


     Dsus2
Она сама по себе, она со всеми и ни с кем, 
 Gm6/B
Она нужна всем, но не нужна никому. 
     F+7/6
В ее зеленых глазах легко можно прочесть, 
     A7
Что она принадлежать никогда не сможет одному, 
Она всегда молчит, быть может, просто нет слов, 
Ну а, может быть, считает, что нет смысла отвечать, 
Но, в отличие от всех, она хотя бы не врет, 
И если ты так захочешь, то она сейчас опять уйдет. 
Еще один день, еще одна ночь, еще один год 
Ты так надеешься, что у нее это пройдет. 
И кажется, что ждать осталось совсем немножко, 
Хочется верить, но она всего лишь кошка... кошка...

Что ей снится, когда слезы на ее ресницах, 
Когда в эту ночь опять не спится 
И так больно курить одну за одной. 

Ты ей все простишь утром, когда услышишь в свою дерь звонок, 
Она опять улыбнется и уснет у твоих ног. 
И что-то внутри вдруг снова станет на место, 
Так далеки друг от друг, но все же кажется, что вместе. 
Сейчас она с тобой, после с кем-то еще, 
Она тебя понять не может, ей просто всеравно, 
Она всего лишь любит развлечения и вино, 
И каждая ночь с ней каждый раз заодно. 
Она вернется опять и снова будет молчать, 
И ты ее не вини, если совсем не хочешь потерять, 
Помолчи с ней немного, попробуй просто понять, 
Она всего лишь кошка и хочет спать. 

Припев
////////////////////

Dsus2: xx0230
Gm6/B: x1x030
F+7/6: 1xx230
A7: x0x020

Перебор бас-3-2-1-2-3-1-2






© 2009 Copyright dBES, Все права защищены. E-Mail: videoaccords@gmail.com     Список песен