Поиск по песням:


5nizza
Ace Of Base
Adele
Blink 182
Comedy Club
Cranberries
Eagles
Guns N Roses
Limp Bizkit
Lumen
Metallica
Nautilus Pompilius
Nirvana
Noize MC
Oasis
Red Hot Chili Peppers
System Of A Down
The Beatles
x-meatles
Агата Кристи
Алиса
Ария
Аукцыон
Баста
Би-2
Браво
Бумбокс
Бутусов Вячеслав
Высоцкий Владимир
Город 312
Гражданская Оборона
Гребенщиков Борис
Дворовые песни
ДДТ
Жуки
Звери
Земфира
Кино
Король и Шут
Круг Михаил
Ласковый май
Лепс Григорий
Любэ
Ляпис Трубецкой
Мальчишник
Маркин Владимир
Машина времени
Мельница
Мумий Тролль
Никольский Константин
Ночные снайперы
Окуджава Булат
Песни из кинофильмов
Петлюра
Пилот
Плач Єремії
Рождество
Розенбаум Александр
Сектор Газа
Смысловые Галлюцинации
Сплин
Танцы Минус
Трофим
Чайф
Чиж & Co
Янка Дягилева

Исполнитель:

Sting

Песня:

Shape of my heart



pasha721 Kolas
Видео добавил: pasha721

Рейтинг 4.63/5, проголосовало: 62


Сообщить о нарушении


Похожие видео:
2012-01-01 00:00
Король и Шут - Воспоминания о.б.л.(начало)
2011-07-10 21:54
Белая Гвардия - Комната
2011-31-01 15:35
Чиж & Co - Автобус


Комментарии:

1/21/2015 9:43 AM
Молодец! Супер!



Оставьте свой комментарий:


Sting - Shape of my heart

INTRO:
    Em                D6                A5                B7sus4  B7
||--3---------3-----|-2---------2-----|-----------------|-----------------|
||--------0---------|-------0---------|-5---------5-----|-5-------4-------|
||*-----0-------0---|-----2-------2---|-------2---------|-----2-------2---|
||*-2-------2-------|-0-------0-------|-----2-------2---|-----------------|
||------------------|-----------------|-0-------0-------|-2-------2-------|
||------------------|-----------------|-----------------|-----------------|

  C/E               D6                A5                B7sus4  B7
|-3---------3-----|-2---------2-----|-----------------|------------------|
|-------1---------|-------0---------|-5---------5-----|-5-------4--------|
|-----0-------0---|-----2-------2---|-------2---------|-----2-------2----|
|-2-------2-------|-0-------0-------|-----2-------2---|------------------|
|-----------------|-----------------|-0-------0-------|-2-------2------2-|
|-----------------|-----------------|-----------------|------------------|

  C                   C                  Gsus4 G           B7
|--------0-------3--|-----0-----------|------------------|-----------------|
|------------1------|---------1-------|-h1-----0---------|---------4-------|
|------0-------0----|-----0-------0---|--0---------0-----|-----2-----------|
|-------------------|-----------------|------0-------0---|-----4-------4---|
|-h3-------3--------|-3-------3-------|------------------|-2-------2-------|
|-------------------|-----------------|--3-------3-------|-----------------|

  C                 Am              * Em                 Em
|-0-----0---------|-0---------------|-0----------------|-----------------||
|-1-----1---------|-1---------------|-0----------------|-----------------||
|-0-----0---------|-2---------------|-0----------------|----------------*||
|-----2-------2---|-2---------------|-2----------------|----------------*||
|-3-------3-------|-0---------------|-2----------------|-----------------||
|-----------------|-----------------|-0----------------|-----------------||






© 2009 Copyright dBES, Все права защищены. E-Mail: videoaccords@gmail.com     Список песен